Guitar Tab-Sweet Child 'o Mine (Guns n Roses)

Sweet Child O Mine Intro Guitar Lesson:

e|--------------------15--------14----------------------------15--------14----------|
b|-----15--------------------------------------15-----------------------------------|
g|---------14---12---------14------14--------------14---12---------14------14-------|
d|-12--------------------------------------12---------------------------------------|

e|--------------------15--------14----------------------------15--------14----------|
b|-----15--------------------------------------15-----------------------------------|
g|---------14---12---------14------14--------------14---12---------14------14-------|
d|-14---------------------------------------14--------------------------------------|

e|--------------------15--------14----------------------------15--------14----------|
b|-----15--------------------------------------15-----------------------------------|
g|11-------14---12---------14------14--11----------14---12---------14------14-------|
d|----------------------------------------------------------------------------------|

e|--------------------15--------14----------------------------15--------14----------|
b|-----15--------------------------------------15-----------------------------------|
g|---------14---12---------14------14--------------14---12---------14------14-------|
d|-12--------------------------------------12---------------------------------------|

e|--------------------15--------14----------------------------15--------14----------|
b|-----15--------------------------------------15-----------------------------------|
g|---------14---12---------14------14--------------14---12---------14------14-------|
d|-12--------------------------------------12---------------------------------------|

e|--------------------15--------14----------------------------15--------14----------|
b|-----15--------------------------------------15-----------------------------------|
g|---------14---12---------14------14--------------14---12---------14------14-------|
d|-14---------------------------------------14--------------------------------------|

e|--------------------15--------14----------------------------15--------14----------|
b|-----15--------------------------------------15-----------------------------------|
g|11-------14---12---------14------14------11------14---12---------14------14-------|
d|----------------------------------------------------------------------------------| 
 
e|---------------------15-------14--------------------------15--------14----------|
b|-------15----------------------------------15-----------------------------------|
g|-----------14---12-------14----14--------------14---12---------14------14-------|
d|---12----------------------------------12---------------------------------------|

e|----------------------15------14--------------------------15--------14----------|
b|-------15----------------------------------15-----------------------------------|
g|-----------14---12---------14----14------------14---12---------14------14-------|
d|---12----------------------------------12---------------------------------------|

e|----------------------15-------14------------------------15--------14----------|
b|-------15---------------------------------15-----------------------------------|
g|-----------14---12---------14----14-----------14---12---------14------14-------|
d|---14----------------------------------14--------------------------------------|

e|--------------------15--------14-------------------------15--------14----------|
b|-----15-----------------------------------15-----------------------------------|
g|11-------14---12---------14------14---11------14---12---------14------14-------|
d|-------------------------------------------------------------------------------|

e|--------------------15--------14-------------------------------15--------14----|
b|-----15-----------------------------------------15-----------------------------|
g|---------14---12---------14------14-----------------14---12---------14------14-|
d|-12-----------------------------------------12---------------------------------|

e|-------------------------------------------------------------------------------|
b|-------------------------------------------------------------------------------|
g|-------------------------------------------------------------------------------|
d|---14------14------14------14-----14----14------14--------14-------------------|
a|-------15-------------------------------------------15----15-------------------|
e|12--------------12------14------15-----14-----12-------------------------------|